ISO-10303-21;
HEADER;
FILE_DESCRIPTION (( 'STEP AP203' ),
    '1' );
FILE_NAME ('Q-OZHWP-R2-12.7-1550-M.STEP',
    '2020-12-22T09:13:21',
    ( '' ),
    ( '' ),
    'SwSTEP 2.0',
    'SolidWorks 2020',
    '' );
FILE_SCHEMA (( 'CONFIG_CONTROL_DESIGN' ));
ENDSEC;

DATA;
#1 = CARTESIAN_POINT ( 'NONE',  ( -1.614212418857619014, 0.000000000000000000, 0.000000000000000000 ) ) ;
#2 = FACE_OUTER_BOUND ( 'NONE', #156, .T. ) ;
#3 = CIRCLE ( 'NONE', #70, 6.349999999999999645 ) ;
#4 = FACE_BOUND ( 'NONE', #20, .T. ) ;
#5 = CARTESIAN_POINT ( 'NONE',  ( -1.614212418857619014, 0.000000000000000000, 0.000000000000000000 ) ) ;
#6 = FACE_OUTER_BOUND ( 'NONE', #101, .T. ) ;
#7 = AXIS2_PLACEMENT_3D ( 'NONE', #272, #38, #196 ) ;
#8 = PERSON_AND_ORGANIZATION ( #115, #283 ) ;
#9 = DIRECTION ( 'NONE',  ( -1.000000000000000000, -0.000000000000000000, -0.000000000000000000 ) ) ;
#10 = CALENDAR_DATE ( 2020, 22, 12 ) ;
#11 = FACE_OUTER_BOUND ( 'NONE', #204, .T. ) ;
#12 = AXIS2_PLACEMENT_3D ( 'NONE', #33, #113, #295 ) ;
#13 = CARTESIAN_POINT ( 'NONE',  ( -1.614212418857619014, 0.000000000000000000, 12.69999999999999929 ) ) ;
#14 =( NAMED_UNIT ( * ) PLANE_ANGLE_UNIT ( ) SI_UNIT ( $, .RADIAN. ) );
#15 = ORIENTED_EDGE ( 'NONE', *, *, #259, .T. ) ;
#16 = DATE_AND_TIME ( #86, #294 ) ;
#17 = APPROVAL_PERSON_ORGANIZATION ( #8, #236, #147 ) ;
#18 = EDGE_LOOP ( 'NONE', ( #332, #328, #157, #277 ) ) ;
#19 = ORIENTED_EDGE ( 'NONE', *, *, #108, .T. ) ;
#20 = EDGE_LOOP ( 'NONE', ( #19, #71 ) ) ;
#21 = ADVANCED_FACE ( 'NONE', ( #237 ), #189, .T. ) ;
#22 = AXIS2_PLACEMENT_3D ( 'NONE', #182, #56, #209 ) ;
#23 = AXIS2_PLACEMENT_3D ( 'NONE', #36, #299, #67 ) ;
#24 = DIRECTION ( 'NONE',  ( 1.000000000000000000, 0.000000000000000000, 0.000000000000000000 ) ) ;
#25 = EDGE_CURVE ( 'NONE', #150, #72, #117, .T. ) ;
#26 = CARTESIAN_POINT ( 'NONE',  ( -2.999999999999999556, 7.776507174585692163E-16, -6.349999999999999645 ) ) ;
#27 = CC_DESIGN_PERSON_AND_ORGANIZATION_ASSIGNMENT ( #319, #172, ( #314 ) ) ;
#28 = CARTESIAN_POINT ( 'NONE',  ( -1.500000000000000444, 7.776507174585692163E-16, -6.349999999999999645 ) ) ;
#29 = ADVANCED_FACE ( 'NONE', ( #281, #4 ), #264, .F. ) ;
#30 = ORIENTED_EDGE ( 'NONE', *, *, #166, .F. ) ;
#31 = CIRCLE ( 'NONE', #331, 6.349999999999999645 ) ;
#32 = CARTESIAN_POINT ( 'NONE',  ( 3.000000000000000000, 12.69999999999999929, 0.000000000000000000 ) ) ;
#33 = CARTESIAN_POINT ( 'NONE',  ( -1.500000000000000444, 0.000000000000000000, 0.000000000000000000 ) ) ;
#34 = CARTESIAN_POINT ( 'NONE',  ( -3.000000000000000000, 6.349999999999999645, 0.000000000000000000 ) ) ;
#35 = LOCAL_TIME ( 17, 13, 21.00000000000000000, #247 ) ;
#36 = CARTESIAN_POINT ( 'NONE',  ( 3.000000000000000000, 0.000000000000000000, 0.000000000000000000 ) ) ;
#37 = DATE_AND_TIME ( #298, #333 ) ;
#38 = DIRECTION ( 'NONE',  ( -1.000000000000000000, -0.000000000000000000, -0.000000000000000000 ) ) ;
#39 = DATE_AND_TIME ( #321, #190 ) ;
#40 = CC_DESIGN_DATE_AND_TIME_ASSIGNMENT ( #16, #91, ( #273 ) ) ;
#41 = DIRECTION ( 'NONE',  ( 0.000000000000000000, 0.000000000000000000, 1.000000000000000000 ) ) ;
#42 = APPLICATION_PROTOCOL_DEFINITION ( 'international standard', 'config_control_design', 1994, #107 ) ;
#43 = CIRCLE ( 'NONE', #215, 6.349999999999999645 ) ;
#44 = ORIENTED_EDGE ( 'NONE', *, *, #25, .T. ) ;
#45 = APPROVAL_DATE_TIME ( #65, #236 ) ;
#46 = MANIFOLD_SOLID_BREP ( 'Ðý×', #307 ) ;
#47 = VERTEX_POINT ( 'NONE', #79 ) ;
#48 = VECTOR ( 'NONE', #171, 1000.000000000000000 ) ;
#49 = ORIENTED_EDGE ( 'NONE', *, *, #225, .F. ) ;
#50 = VERTEX_POINT ( 'NONE', #311 ) ;
#51 = CARTESIAN_POINT ( 'NONE',  ( 1.500000000000000888, 0.000000000000000000, 6.349999999999999645 ) ) ;
#52 = AXIS2_PLACEMENT_3D ( 'NONE', #173, #197, #239 ) ;
#53 = DIRECTION ( 'NONE',  ( -1.000000000000000000, -0.000000000000000000, -0.000000000000000000 ) ) ;
#54 = CC_DESIGN_PERSON_AND_ORGANIZATION_ASSIGNMENT ( #93, #138, ( #119 ) ) ;
#55 = EDGE_CURVE ( 'NONE', #77, #150, #238, .T. ) ;
#56 = DIRECTION ( 'NONE',  ( -1.000000000000000000, -0.000000000000000000, -0.000000000000000000 ) ) ;
#57 = APPROVAL ( #178, 'UNSPECIFIED' ) ;
#58 = CARTESIAN_POINT ( 'NONE',  ( 3.000000000000000000, 0.000000000000000000, 12.69999999999999929 ) ) ;
#59 = AXIS2_PLACEMENT_3D ( 'NONE', #5, #164, #75 ) ;
#60 = CARTESIAN_POINT ( 'NONE',  ( -3.000000000000000000, 1.555301434917138433E-15, -12.69999999999999929 ) ) ;
#61 = FACE_BOUND ( 'NONE', #135, .T. ) ;
#62 = COORDINATED_UNIVERSAL_TIME_OFFSET ( 8, 0, .AHEAD. ) ;
#63 = DIRECTION ( 'NONE',  ( 0.000000000000000000, 0.000000000000000000, 1.000000000000000000 ) ) ;
#64 = CARTESIAN_POINT ( 'NONE',  ( -1.614212418857619014, 0.000000000000000000, 6.349999999999999645 ) ) ;
#65 = DATE_AND_TIME ( #10, #248 ) ;
#66 = DIRECTION ( 'NONE',  ( -0.000000000000000000, 0.000000000000000000, 1.000000000000000000 ) ) ;
#67 = DIRECTION ( 'NONE',  ( 0.000000000000000000, 0.000000000000000000, 1.000000000000000000 ) ) ;
#68 = EDGE_CURVE ( 'NONE', #72, #150, #163, .T. ) ;
#69 = APPLICATION_PROTOCOL_DEFINITION ( 'international standard', 'config_control_design', 1994, #266 ) ;
#70 = AXIS2_PLACEMENT_3D ( 'NONE', #158, #24, #130 ) ;
#71 = ORIENTED_EDGE ( 'NONE', *, *, #274, .T. ) ;
#72 = VERTEX_POINT ( 'NONE', #211 ) ;
#73 = VERTEX_POINT ( 'NONE', #58 ) ;
#74 = CYLINDRICAL_SURFACE ( 'NONE', #133, 6.349999999999999645 ) ;
#75 = DIRECTION ( 'NONE',  ( 0.000000000000000000, 0.000000000000000000, 1.000000000000000000 ) ) ;
#76 = AXIS2_PLACEMENT_3D ( 'NONE', #323, #167, #316 ) ;
#77 = VERTEX_POINT ( 'NONE', #28 ) ;
#78 = ADVANCED_FACE ( 'NONE', ( #2 ), #262, .F. ) ;
#79 = CARTESIAN_POINT ( 'NONE',  ( -1.500000000000000444, 0.000000000000000000, 6.349999999999999645 ) ) ;
#80 = ADVANCED_FACE ( 'NONE', ( #184 ), #74, .F. ) ;
#81 = CARTESIAN_POINT ( 'NONE',  ( -2.999999999999999556, 0.000000000000000000, 0.000000000000000000 ) ) ;
#82 = VECTOR ( 'NONE', #217, 1000.000000000000000 ) ;
#83 = DIRECTION ( 'NONE',  ( -1.000000000000000000, 0.000000000000000000, -0.000000000000000000 ) ) ;
#84 = EDGE_CURVE ( 'NONE', #201, #329, #308, .T. ) ;
#85 = DIRECTION ( 'NONE',  ( -1.000000000000000000, -0.000000000000000000, -0.000000000000000000 ) ) ;
#86 = CALENDAR_DATE ( 2020, 22, 12 ) ;
#87 = DIRECTION ( 'NONE',  ( 0.000000000000000000, 0.000000000000000000, -1.000000000000000000 ) ) ;
#88 = PERSON_AND_ORGANIZATION_ROLE ( 'creator' ) ;
#89 = LINE ( 'NONE', #64, #48 ) ;
#90 = VECTOR ( 'NONE', #260, 1000.000000000000000 ) ;
#91 = DATE_TIME_ROLE ( 'classification_date' ) ;
#92 = CARTESIAN_POINT ( 'NONE',  ( -1.614212418857619014, 0.000000000000000000, 0.000000000000000000 ) ) ;
#93 = PERSON_AND_ORGANIZATION ( #115, #283 ) ;
#94 = DATE_TIME_ROLE ( 'creation_date' ) ;
#95 = ORIENTED_EDGE ( 'NONE', *, *, #55, .T. ) ;
#96 = AXIS2_PLACEMENT_3D ( 'NONE', #216, #297, #241 ) ;
#97 = ORIENTED_EDGE ( 'NONE', *, *, #153, .F. ) ;
#98 = ORIENTED_EDGE ( 'NONE', *, *, #55, .F. ) ;
#99 = EDGE_LOOP ( 'NONE', ( #335, #134, #15, #177 ) ) ;
#100 = AXIS2_PLACEMENT_3D ( 'NONE', #32, #306, #106 ) ;
#101 = EDGE_LOOP ( 'NONE', ( #49, #97 ) ) ;
#102 = EDGE_CURVE ( 'NONE', #304, #253, #326, .T. ) ;
#103 = VERTEX_POINT ( 'NONE', #51 ) ;
#104 = VECTOR ( 'NONE', #213, 1000.000000000000000 ) ;
#105 = CARTESIAN_POINT ( 'NONE',  ( -3.000000000000000000, 0.000000000000000000, 0.000000000000000000 ) ) ;
#106 = DIRECTION ( 'NONE',  ( -0.000000000000000000, 0.000000000000000000, 1.000000000000000000 ) ) ;
#107 = APPLICATION_CONTEXT ( 'configuration controlled 3d designs of mechanical parts and assemblies' ) ;
#108 = EDGE_CURVE ( 'NONE', #50, #201, #43, .T. ) ;
#109 = DIRECTION ( 'NONE',  ( -1.000000000000000000, -0.000000000000000000, -0.000000000000000000 ) ) ;
#110 = PLANE ( 'NONE',  #176 ) ;
#111 = EDGE_CURVE ( 'NONE', #77, #47, #3, .T. ) ;
#112 = PLANE ( 'NONE',  #96 ) ;
#113 = DIRECTION ( 'NONE',  ( 1.000000000000000000, 0.000000000000000000, 0.000000000000000000 ) ) ;
#114 = PERSON_AND_ORGANIZATION ( #115, #283 ) ;
#115 = PERSON ( 'UNSPECIFIED', 'UNSPECIFIED', 'UNSPECIFIED', ('UNSPECIFIED'), ('UNSPECIFIED'), ('UNSPECIFIED') ) ;
#116 = CARTESIAN_POINT ( 'NONE',  ( -1.614212418857619014, 0.000000000000000000, 6.349999999999999645 ) ) ;
#117 = CIRCLE ( 'NONE', #22, 6.349999999999999645 ) ;
#118 = PERSON_AND_ORGANIZATION_ROLE ( 'design_supplier' ) ;
#119 = PRODUCT ( 'Q-OZHWP-R2-12.7-1550-M', 'Q-OZHWP-R2-12.7-1550-M', '', ( #193 ) ) ;
#120 = CARTESIAN_POINT ( 'NONE',  ( 3.000000000000000888, 0.000000000000000000, 0.000000000000000000 ) ) ;
#121 = APPROVAL_STATUS ( 'not_yet_approved' ) ;
#122 = CC_DESIGN_PERSON_AND_ORGANIZATION_ASSIGNMENT ( #268, #242, ( #273 ) ) ;
#123 = ORIENTED_EDGE ( 'NONE', *, *, #111, .F. ) ;
#124 = AXIS2_PLACEMENT_3D ( 'NONE', #81, #261, #258 ) ;
#125 = ORIENTED_EDGE ( 'NONE', *, *, #68, .T. ) ;
#126 = PRODUCT_RELATED_PRODUCT_CATEGORY ( 'detail', '', ( #119 ) ) ;
#127 = ORIENTED_EDGE ( 'NONE', *, *, #68, .F. ) ;
#128 = VERTEX_POINT ( 'NONE', #232 ) ;
#129 =( GEOMETRIC_REPRESENTATION_CONTEXT ( 3 ) GLOBAL_UNCERTAINTY_ASSIGNED_CONTEXT ( ( #305 ) ) GLOBAL_UNIT_ASSIGNED_CONTEXT ( ( #224, #14, #250 ) ) REPRESENTATION_CONTEXT ( 'NONE', 'WORKASPACE' ) );
#130 = DIRECTION ( 'NONE',  ( 0.000000000000000000, 0.000000000000000000, -1.000000000000000000 ) ) ;
#131 = CARTESIAN_POINT ( 'NONE',  ( -1.614212418857619014, 7.776507174585692163E-16, -6.349999999999999645 ) ) ;
#132 = CARTESIAN_POINT ( 'NONE',  ( -1.614212418857619014, 0.000000000000000000, 0.000000000000000000 ) ) ;
#133 = AXIS2_PLACEMENT_3D ( 'NONE', #132, #109, #235 ) ;
#134 = ORIENTED_EDGE ( 'NONE', *, *, #334, .T. ) ;
#135 = EDGE_LOOP ( 'NONE', ( #127, #275 ) ) ;
#136 = LINE ( 'NONE', #116, #181 ) ;
#137 = DIRECTION ( 'NONE',  ( 0.000000000000000000, 0.000000000000000000, 1.000000000000000000 ) ) ;
#138 = PERSON_AND_ORGANIZATION_ROLE ( 'design_owner' ) ;
#139 = CARTESIAN_POINT ( 'NONE',  ( 3.000000000000000888, 7.776507174585692163E-16, -6.349999999999999645 ) ) ;
#140 = APPROVAL_ROLE ( '' ) ;
#141 = FACE_OUTER_BOUND ( 'NONE', #278, .T. ) ;
#142 = DIRECTION ( 'NONE',  ( 0.000000000000000000, 0.000000000000000000, 1.000000000000000000 ) ) ;
#143 = CYLINDRICAL_SURFACE ( 'NONE', #279, 6.349999999999999645 ) ;
#144 = EDGE_CURVE ( 'NONE', #128, #253, #282, .T. ) ;
#145 = CC_DESIGN_APPROVAL ( #236, ( #314 ) ) ;
#146 = ADVANCED_BREP_SHAPE_REPRESENTATION ( 'Q-OZHWP-R2-12.7-1550-M', ( #46, #263 ), #129 ) ;
#147 = APPROVAL_ROLE ( '' ) ;
#148 = PRODUCT_DEFINITION_SHAPE ( 'NONE', 'NONE',  #314 ) ;
#149 = CC_DESIGN_PERSON_AND_ORGANIZATION_ASSIGNMENT ( #218, #88, ( #210 ) ) ;
#150 = VERTEX_POINT ( 'NONE', #26 ) ;
#151 = ADVANCED_FACE ( 'NONE', ( #234 ), #143, .F. ) ;
#152 = CALENDAR_DATE ( 2020, 22, 12 ) ;
#153 = EDGE_CURVE ( 'NONE', #329, #103, #227, .T. ) ;
#154 = ORIENTED_EDGE ( 'NONE', *, *, #206, .F. ) ;
#155 = APPROVAL_PERSON_ORGANIZATION ( #114, #276, #198 ) ;
#156 = EDGE_LOOP ( 'NONE', ( #180, #95, #44, #154 ) ) ;
#157 = ORIENTED_EDGE ( 'NONE', *, *, #153, .T. ) ;
#158 = CARTESIAN_POINT ( 'NONE',  ( -1.500000000000000444, 0.000000000000000000, 0.000000000000000000 ) ) ;
#159 = EDGE_CURVE ( 'NONE', #47, #77, #240, .T. ) ;
#160 = CARTESIAN_POINT ( 'NONE',  ( -1.614212418857619014, 1.555301434917138433E-15, -12.69999999999999929 ) ) ;
#161 = CARTESIAN_POINT ( 'NONE',  ( -1.614212418857619014, 7.776507174585692163E-16, -6.349999999999999645 ) ) ;
#162 = DIRECTION ( 'NONE',  ( 0.000000000000000000, 0.000000000000000000, 1.000000000000000000 ) ) ;
#163 = CIRCLE ( 'NONE', #124, 6.349999999999999645 ) ;
#164 = DIRECTION ( 'NONE',  ( -1.000000000000000000, -0.000000000000000000, -0.000000000000000000 ) ) ;
#165 = DIRECTION ( 'NONE',  ( -1.000000000000000000, -0.000000000000000000, -0.000000000000000000 ) ) ;
#166 = EDGE_CURVE ( 'NONE', #73, #128, #205, .T. ) ;
#167 = DIRECTION ( 'NONE',  ( -1.000000000000000000, -0.000000000000000000, -0.000000000000000000 ) ) ;
#168 = SHAPE_DEFINITION_REPRESENTATION ( #148, #146 ) ;
#169 = CARTESIAN_POINT ( 'NONE',  ( 1.500000000000000444, 6.349999999999999645, 0.000000000000000000 ) ) ;
#170 = DATE_AND_TIME ( #152, #35 ) ;
#171 = DIRECTION ( 'NONE',  ( -1.000000000000000000, -0.000000000000000000, -0.000000000000000000 ) ) ;
#172 = PERSON_AND_ORGANIZATION_ROLE ( 'creator' ) ;
#173 = CARTESIAN_POINT ( 'NONE',  ( 1.500000000000000888, 0.000000000000000000, 0.000000000000000000 ) ) ;
#174 = APPROVAL_STATUS ( 'not_yet_approved' ) ;
#175 = AXIS2_PLACEMENT_3D ( 'NONE', #1, #287, #285 ) ;
#176 = AXIS2_PLACEMENT_3D ( 'NONE', #169, #83, #66 ) ;
#177 = ORIENTED_EDGE ( 'NONE', *, *, #212, .F. ) ;
#178 = APPROVAL_STATUS ( 'not_yet_approved' ) ;
#179 = EDGE_LOOP ( 'NONE', ( #30, #302 ) ) ;
#180 = ORIENTED_EDGE ( 'NONE', *, *, #159, .T. ) ;
#181 = VECTOR ( 'NONE', #165, 1000.000000000000000 ) ;
#182 = CARTESIAN_POINT ( 'NONE',  ( -2.999999999999999556, 0.000000000000000000, 0.000000000000000000 ) ) ;
#183 = DESIGN_CONTEXT ( 'detailed design', #266, 'design' ) ;
#184 = FACE_OUTER_BOUND ( 'NONE', #18, .T. ) ;
#185 = ORIENTED_EDGE ( 'NONE', *, *, #225, .T. ) ;
#186 = CC_DESIGN_SECURITY_CLASSIFICATION ( #273, ( #210 ) ) ;
#187 = CARTESIAN_POINT ( 'NONE',  ( 3.000000000000000888, 0.000000000000000000, 0.000000000000000000 ) ) ;
#188 = CC_DESIGN_PERSON_AND_ORGANIZATION_ASSIGNMENT ( #195, #118, ( #210 ) ) ;
#189 = CYLINDRICAL_SURFACE ( 'NONE', #175, 12.69999999999999929 ) ;
#190 = LOCAL_TIME ( 17, 13, 21.00000000000000000, #252 ) ;
#191 = LINE ( 'NONE', #13, #82 ) ;
#192 = CARTESIAN_POINT ( 'NONE',  ( -3.000000000000000000, 0.000000000000000000, 12.69999999999999929 ) ) ;
#193 = MECHANICAL_CONTEXT ( 'NONE', #107, 'mechanical' ) ;
#194 = CARTESIAN_POINT ( 'NONE',  ( 1.500000000000000888, 7.776507174585692163E-16, -6.349999999999999645 ) ) ;
#195 = PERSON_AND_ORGANIZATION ( #115, #283 ) ;
#196 = DIRECTION ( 'NONE',  ( 0.000000000000000000, 0.000000000000000000, 1.000000000000000000 ) ) ;
#197 = DIRECTION ( 'NONE',  ( -1.000000000000000000, -0.000000000000000000, -0.000000000000000000 ) ) ;
#198 = APPROVAL_ROLE ( '' ) ;
#199 = PERSON_AND_ORGANIZATION ( #115, #283 ) ;
#200 = CIRCLE ( 'NONE', #52, 6.349999999999999645 ) ;
#201 = VERTEX_POINT ( 'NONE', #139 ) ;
#202 = ADVANCED_FACE ( 'NONE', ( #11 ), #221, .T. ) ;
#203 = ORIENTED_EDGE ( 'NONE', *, *, #259, .F. ) ;
#204 = EDGE_LOOP ( 'NONE', ( #207, #327, #257, #203 ) ) ;
#205 = CIRCLE ( 'NONE', #7, 12.69999999999999929 ) ;
#206 = EDGE_CURVE ( 'NONE', #47, #72, #136, .T. ) ;
#207 = ORIENTED_EDGE ( 'NONE', *, *, #166, .T. ) ;
#208 = ORIENTED_EDGE ( 'NONE', *, *, #108, .F. ) ;
#209 = DIRECTION ( 'NONE',  ( 0.000000000000000000, 0.000000000000000000, 1.000000000000000000 ) ) ;
#210 = PRODUCT_DEFINITION_FORMATION_WITH_SPECIFIED_SOURCE ( 'ANY', '', #119, .NOT_KNOWN. ) ;
#211 = CARTESIAN_POINT ( 'NONE',  ( -2.999999999999999556, 0.000000000000000000, 6.349999999999999645 ) ) ;
#212 = EDGE_CURVE ( 'NONE', #253, #304, #313, .T. ) ;
#213 = DIRECTION ( 'NONE',  ( -1.000000000000000000, -0.000000000000000000, -0.000000000000000000 ) ) ;
#214 = DIRECTION ( 'NONE',  ( -1.000000000000000000, -0.000000000000000000, -0.000000000000000000 ) ) ;
#215 = AXIS2_PLACEMENT_3D ( 'NONE', #187, #286, #162 ) ;
#216 = CARTESIAN_POINT ( 'NONE',  ( -1.500000000000000444, 6.349999999999999645, 0.000000000000000000 ) ) ;
#217 = DIRECTION ( 'NONE',  ( -1.000000000000000000, -0.000000000000000000, -0.000000000000000000 ) ) ;
#218 = PERSON_AND_ORGANIZATION ( #115, #283 ) ;
#219 = CARTESIAN_POINT ( 'NONE',  ( -1.614212418857619014, 0.000000000000000000, 0.000000000000000000 ) ) ;
#220 = AXIS2_PLACEMENT_3D ( 'NONE', #34, #270, #87 ) ;
#221 = CYLINDRICAL_SURFACE ( 'NONE', #254, 12.69999999999999929 ) ;
#222 = EDGE_CURVE ( 'NONE', #50, #103, #89, .T. ) ;
#223 = COORDINATED_UNIVERSAL_TIME_OFFSET ( 8, 0, .AHEAD. ) ;
#224 =( LENGTH_UNIT ( ) NAMED_UNIT ( * ) SI_UNIT ( .MILLI., .METRE. ) );
#225 = EDGE_CURVE ( 'NONE', #103, #329, #200, .T. ) ;
#226 = EDGE_LOOP ( 'NONE', ( #98, #280, #301, #125 ) ) ;
#227 = CIRCLE ( 'NONE', #269, 6.349999999999999645 ) ;
#228 = ORIENTED_EDGE ( 'NONE', *, *, #159, .F. ) ;
#229 = ORIENTED_EDGE ( 'NONE', *, *, #102, .T. ) ;
#230 = EDGE_LOOP ( 'NONE', ( #255, #208, #300, #185 ) ) ;
#231 = CC_DESIGN_APPROVAL ( #57, ( #210 ) ) ;
#232 = CARTESIAN_POINT ( 'NONE',  ( 3.000000000000000000, 1.555301434917138433E-15, -12.69999999999999929 ) ) ;
#233 = ADVANCED_FACE ( 'NONE', ( #6 ), #110, .F. ) ;
#234 = FACE_OUTER_BOUND ( 'NONE', #230, .T. ) ;
#235 = DIRECTION ( 'NONE',  ( 0.000000000000000000, 0.000000000000000000, 1.000000000000000000 ) ) ;
#236 = APPROVAL ( #174, 'UNSPECIFIED' ) ;
#237 = FACE_OUTER_BOUND ( 'NONE', #99, .T. ) ;
#238 = LINE ( 'NONE', #161, #104 ) ;
#239 = DIRECTION ( 'NONE',  ( 0.000000000000000000, 0.000000000000000000, 1.000000000000000000 ) ) ;
#240 = CIRCLE ( 'NONE', #12, 6.349999999999999645 ) ;
#241 = DIRECTION ( 'NONE',  ( 0.000000000000000000, 0.000000000000000000, -1.000000000000000000 ) ) ;
#242 = PERSON_AND_ORGANIZATION_ROLE ( 'classification_officer' ) ;
#243 = DIRECTION ( 'NONE',  ( -1.000000000000000000, -0.000000000000000000, -0.000000000000000000 ) ) ;
#244 = COORDINATED_UNIVERSAL_TIME_OFFSET ( 8, 0, .AHEAD. ) ;
#245 = ADVANCED_FACE ( 'NONE', ( #249 ), #112, .F. ) ;
#246 = CARTESIAN_POINT ( 'NONE',  ( -1.614212418857619014, 0.000000000000000000, 0.000000000000000000 ) ) ;
#247 = COORDINATED_UNIVERSAL_TIME_OFFSET ( 8, 0, .AHEAD. ) ;
#248 = LOCAL_TIME ( 17, 13, 21.00000000000000000, #244 ) ;
#249 = FACE_OUTER_BOUND ( 'NONE', #251, .T. ) ;
#250 =( NAMED_UNIT ( * ) SI_UNIT ( $, .STERADIAN. ) SOLID_ANGLE_UNIT ( ) );
#251 = EDGE_LOOP ( 'NONE', ( #228, #123 ) ) ;
#252 = COORDINATED_UNIVERSAL_TIME_OFFSET ( 8, 0, .AHEAD. ) ;
#253 = VERTEX_POINT ( 'NONE', #60 ) ;
#254 = AXIS2_PLACEMENT_3D ( 'NONE', #219, #320, #137 ) ;
#255 = ORIENTED_EDGE ( 'NONE', *, *, #84, .F. ) ;
#256 = ORIENTED_EDGE ( 'NONE', *, *, #212, .T. ) ;
#257 = ORIENTED_EDGE ( 'NONE', *, *, #102, .F. ) ;
#258 = DIRECTION ( 'NONE',  ( 0.000000000000000000, 0.000000000000000000, 1.000000000000000000 ) ) ;
#259 = EDGE_CURVE ( 'NONE', #73, #304, #191, .T. ) ;
#260 = DIRECTION ( 'NONE',  ( -1.000000000000000000, -0.000000000000000000, -0.000000000000000000 ) ) ;
#261 = DIRECTION ( 'NONE',  ( -1.000000000000000000, -0.000000000000000000, -0.000000000000000000 ) ) ;
#262 = CYLINDRICAL_SURFACE ( 'NONE', #59, 6.349999999999999645 ) ;
#263 = AXIS2_PLACEMENT_3D ( 'NONE', #325, #142, #296 ) ;
#264 = PLANE ( 'NONE',  #100 ) ;
#265 = DIRECTION ( 'NONE',  ( 0.000000000000000000, 0.000000000000000000, 1.000000000000000000 ) ) ;
#266 = APPLICATION_CONTEXT ( 'configuration controlled 3d designs of mechanical parts and assemblies' ) ;
#267 = PLANE ( 'NONE',  #220 ) ;
#268 = PERSON_AND_ORGANIZATION ( #115, #283 ) ;
#269 = AXIS2_PLACEMENT_3D ( 'NONE', #312, #9, #41 ) ;
#270 = DIRECTION ( 'NONE',  ( 1.000000000000000000, 0.000000000000000000, 0.000000000000000000 ) ) ;
#271 = DIRECTION ( 'NONE',  ( -1.000000000000000000, -0.000000000000000000, -0.000000000000000000 ) ) ;
#272 = CARTESIAN_POINT ( 'NONE',  ( 3.000000000000000000, 0.000000000000000000, 0.000000000000000000 ) ) ;
#273 = SECURITY_CLASSIFICATION ( '', '', #293 ) ;
#274 = EDGE_CURVE ( 'NONE', #201, #50, #31, .T. ) ;
#275 = ORIENTED_EDGE ( 'NONE', *, *, #25, .F. ) ;
#276 = APPROVAL ( #121, 'UNSPECIFIED' ) ;
#277 = ORIENTED_EDGE ( 'NONE', *, *, #222, .F. ) ;
#278 = EDGE_LOOP ( 'NONE', ( #229, #256 ) ) ;
#279 = AXIS2_PLACEMENT_3D ( 'NONE', #92, #243, #63 ) ;
#280 = ORIENTED_EDGE ( 'NONE', *, *, #111, .T. ) ;
#281 = FACE_OUTER_BOUND ( 'NONE', #179, .T. ) ;
#282 = LINE ( 'NONE', #160, #90 ) ;
#283 = ORGANIZATION ( 'UNSPECIFIED', 'UNSPECIFIED', '' ) ;
#284 = CC_DESIGN_APPROVAL ( #276, ( #273 ) ) ;
#285 = DIRECTION ( 'NONE',  ( 0.000000000000000000, 0.000000000000000000, 1.000000000000000000 ) ) ;
#286 = DIRECTION ( 'NONE',  ( -1.000000000000000000, -0.000000000000000000, -0.000000000000000000 ) ) ;
#287 = DIRECTION ( 'NONE',  ( -1.000000000000000000, -0.000000000000000000, -0.000000000000000000 ) ) ;
#288 = CIRCLE ( 'NONE', #23, 12.69999999999999929 ) ;
#289 = CC_DESIGN_DATE_AND_TIME_ASSIGNMENT ( #170, #94, ( #314 ) ) ;
#290 = CYLINDRICAL_SURFACE ( 'NONE', #309, 6.349999999999999645 ) ;
#291 = DIRECTION ( 'NONE',  ( 0.000000000000000000, 0.000000000000000000, 1.000000000000000000 ) ) ;
#292 = APPROVAL_DATE_TIME ( #37, #276 ) ;
#293 = SECURITY_CLASSIFICATION_LEVEL ( 'unclassified' ) ;
#294 = LOCAL_TIME ( 17, 13, 21.00000000000000000, #223 ) ;
#295 = DIRECTION ( 'NONE',  ( 0.000000000000000000, 0.000000000000000000, -1.000000000000000000 ) ) ;
#296 = DIRECTION ( 'NONE',  ( 1.000000000000000000, 0.000000000000000000, 0.000000000000000000 ) ) ;
#297 = DIRECTION ( 'NONE',  ( 1.000000000000000000, 0.000000000000000000, 0.000000000000000000 ) ) ;
#298 = CALENDAR_DATE ( 2020, 22, 12 ) ;
#299 = DIRECTION ( 'NONE',  ( -1.000000000000000000, -0.000000000000000000, -0.000000000000000000 ) ) ;
#300 = ORIENTED_EDGE ( 'NONE', *, *, #222, .T. ) ;
#301 = ORIENTED_EDGE ( 'NONE', *, *, #206, .T. ) ;
#302 = ORIENTED_EDGE ( 'NONE', *, *, #334, .F. ) ;
#303 = VECTOR ( 'NONE', #214, 1000.000000000000000 ) ;
#304 = VERTEX_POINT ( 'NONE', #192 ) ;
#305 = UNCERTAINTY_MEASURE_WITH_UNIT (LENGTH_MEASURE( 1.000000000000000082E-05 ), #224, 'distance_accuracy_value', 'NONE');
#306 = DIRECTION ( 'NONE',  ( -1.000000000000000000, 0.000000000000000000, -0.000000000000000000 ) ) ;
#307 = CLOSED_SHELL ( 'NONE', ( #202, #78, #80, #233, #151, #315, #324, #21, #29, #245 ) ) ;
#308 = LINE ( 'NONE', #131, #303 ) ;
#309 = AXIS2_PLACEMENT_3D ( 'NONE', #246, #85, #291 ) ;
#310 = DIRECTION ( 'NONE',  ( 0.000000000000000000, 0.000000000000000000, 1.000000000000000000 ) ) ;
#311 = CARTESIAN_POINT ( 'NONE',  ( 3.000000000000000888, 0.000000000000000000, 6.349999999999999645 ) ) ;
#312 = CARTESIAN_POINT ( 'NONE',  ( 1.500000000000000888, 0.000000000000000000, 0.000000000000000000 ) ) ;
#313 = CIRCLE ( 'NONE', #76, 12.69999999999999929 ) ;
#314 = PRODUCT_DEFINITION ( 'UNKNOWN', '', #210, #183 ) ;
#315 = ADVANCED_FACE ( 'NONE', ( #318 ), #290, .F. ) ;
#316 = DIRECTION ( 'NONE',  ( 0.000000000000000000, 0.000000000000000000, 1.000000000000000000 ) ) ;
#317 = APPROVAL_DATE_TIME ( #39, #57 ) ;
#318 = FACE_OUTER_BOUND ( 'NONE', #226, .T. ) ;
#319 = PERSON_AND_ORGANIZATION ( #115, #283 ) ;
#320 = DIRECTION ( 'NONE',  ( -1.000000000000000000, -0.000000000000000000, -0.000000000000000000 ) ) ;
#321 = CALENDAR_DATE ( 2020, 22, 12 ) ;
#322 = AXIS2_PLACEMENT_3D ( 'NONE', #105, #53, #310 ) ;
#323 = CARTESIAN_POINT ( 'NONE',  ( -3.000000000000000000, 0.000000000000000000, 0.000000000000000000 ) ) ;
#324 = ADVANCED_FACE ( 'NONE', ( #61, #141 ), #267, .F. ) ;
#325 = CARTESIAN_POINT ( 'NONE',  ( 0.000000000000000000, 0.000000000000000000, 0.000000000000000000 ) ) ;
#326 = CIRCLE ( 'NONE', #322, 12.69999999999999929 ) ;
#327 = ORIENTED_EDGE ( 'NONE', *, *, #144, .T. ) ;
#328 = ORIENTED_EDGE ( 'NONE', *, *, #84, .T. ) ;
#329 = VERTEX_POINT ( 'NONE', #194 ) ;
#330 = APPROVAL_PERSON_ORGANIZATION ( #199, #57, #140 ) ;
#331 = AXIS2_PLACEMENT_3D ( 'NONE', #120, #271, #265 ) ;
#332 = ORIENTED_EDGE ( 'NONE', *, *, #274, .F. ) ;
#333 = LOCAL_TIME ( 17, 13, 21.00000000000000000, #62 ) ;
#334 = EDGE_CURVE ( 'NONE', #128, #73, #288, .T. ) ;
#335 = ORIENTED_EDGE ( 'NONE', *, *, #144, .F. ) ;
ENDSEC;
END-ISO-10303-21;
